  0
SECTION
  2
HEADER
  9
$ACADVER
  1
AC1009
  9
$INSBASE
 10
9.638465573457711
 20
32.96183048441608
 30
0.0
  9
$EXTMIN
 10
9.452167194864244
 20
32.96183048441608
 30
0.0
  9
$EXTMAX
 10
186.3290208771585
 20
107.3510630656237
 30
0.0
  9
$LIMMIN
 10
0.0
 20
0.0
  9
$LIMMAX
 10
420.0
 20
297.0
  9
$ORTHOMODE
 70
     0
  9
$REGENMODE
 70
     1
  9
$FILLMODE
 70
     1
  9
$QTEXTMODE
 70
     0
  9
$MIRRTEXT
 70
     0
  9
$DRAGMODE
 70
     2
  9
$LTSCALE
 40
1.0
  9
$OSMODE
 70
     0
  9
$ATTMODE
 70
     1
  9
$TEXTSIZE
 40
3.5
  9
$TRACEWID
 40
0.1
  9
$TEXTSTYLE
  7
STANDARD
  9
$CLAYER
  8
ITEM_50
  9
$CELTYPE
  6
BYLAYER
  9
$CECOLOR
 62
   256
  9
$DIMSCALE
 40
1.0
  9
$DIMASZ
 40
2.0
  9
$DIMEXO
 40
1.0
  9
$DIMDLI
 40
8.0
  9
$DIMRND
 40
0.0
  9
$DIMDLE
 40
0.0
  9
$DIMEXE
 40
2.0
  9
$DIMTP
 40
0.1
  9
$DIMTM
 40
0.1
  9
$DIMTXT
 40
3.5
  9
$DIMCEN
 40
2.0
  9
$DIMTSZ
 40
0.0
  9
$DIMTOL
 70
     0
  9
$DIMLIM
 70
     0
  9
$DIMTIH
 70
     0
  9
$DIMTOH
 70
     0
  9
$DIMSE1
 70
     0
  9
$DIMSE2
 70
     0
  9
$DIMTAD
 70
     1
  9
$DIMZIN
 70
     8
  9
$DIMBLK
  1

  9
$DIMASO
 70
     1
  9
$DIMSHO
 70
     1
  9
$DIMPOST
  1

  9
$DIMAPOST
  1

  9
$DIMALT
 70
     0
  9
$DIMALTD
 70
     2
  9
$DIMALTF
 40
25.39999999999999
  9
$DIMLFAC
 40
1.0
  9
$DIMTOFL
 70
     1
  9
$DIMTVP
 40
0.0
  9
$DIMTIX
 70
     0
  9
$DIMSOXD
 70
     0
  9
$DIMSAH
 70
     0
  9
$DIMBLK1
  1

  9
$DIMBLK2
  1

  9
$DIMSTYLE
  2
*UNNAMED
  9
$DIMCLRD
 70
     0
  9
$DIMCLRE
 70
     0
  9
$DIMCLRT
 70
     0
  9
$DIMTFAC
 40
1.0
  9
$DIMGAP
 40
0.09
  9
$LUNITS
 70
     2
  9
$LUPREC
 70
     3
  9
$SKETCHINC
 40
0.1
  9
$FILLETRAD
 40
20.0
  9
$AUNITS
 70
     0
  9
$AUPREC
 70
     1
  9
$MENU
  1

  9
$ELEVATION
 40
0.0
  9
$PELEVATION
 40
0.0
  9
$THICKNESS
 40
0.0
  9
$LIMCHECK
 70
     0
  9
$BLIPMODE
 70
     0
  9
$CHAMFERA
 40
5.0
  9
$CHAMFERB
 40
5.0
  9
$SKPOLY
 70
     1
  9
$TDCREATE
 40
2448895.573692245
  9
$TDUPDATE
 40
2449393.451380092
  9
$TDINDWG
 40
0.0000762731
  9
$TDUSRTIMER
 40
0.0000762731
  9
$USRTIMER
 70
     1
  9
$ANGBASE
 50
0.0
  9
$ANGDIR
 70
     0
  9
$PDMODE
 70
     3
  9
$PDSIZE
 40
0.0
  9
$PLINEWID
 40
0.0
  9
$COORDS
 70
     2
  9
$SPLFRAME
 70
     0
  9
$SPLINETYPE
 70
     6
  9
$SPLINESEGS
 70
     8
  9
$ATTDIA
 70
     1
  9
$ATTREQ
 70
     1
  9
$HANDLING
 70
     0
  9
$HANDSEED
  5
1ED
  9
$SURFTAB1
 70
     6
  9
$SURFTAB2
 70
     6
  9
$SURFTYPE
 70
     6
  9
$SURFU
 70
     6
  9
$SURFV
 70
     6
  9
$UCSNAME
  2

  9
$UCSORG
 10
0.0
 20
0.0
 30
0.0
  9
$UCSXDIR
 10
1.0
 20
0.0
 30
0.0
  9
$UCSYDIR
 10
0.0
 20
1.0
 30
0.0
  9
$PUCSNAME
  2

  9
$PUCSORG
 10
0.0
 20
0.0
 30
0.0
  9
$PUCSXDIR
 10
1.0
 20
0.0
 30
0.0
  9
$PUCSYDIR
 10
0.0
 20
1.0
 30
0.0
  9
$USERI1
 70
     0
  9
$USERI2
 70
     3
  9
$USERI3
 70
    15
  9
$USERI4
 70
     0
  9
$USERI5
 70
     0
  9
$USERR1
 40
1.0
  9
$USERR2
 40
1.0
  9
$USERR3
 40
0.0
  9
$USERR4
 40
1.0
  9
$USERR5
 40
0.0
  9
$WORLDVIEW
 70
     5
  9
$SHADEDGE
 70
     3
  9
$SHADEDIF
 70
    70
  9
$TILEMODE
 70
     1
  9
$MAXACTVP
 70
    16
  9
$PINSBASE
 10
0.0
 20
0.0
 30
0.0
  9
$PLIMCHECK
 70
     0
  9
$PEXTMIN
 10
1.000000000000000E+20
 20
1.000000000000000E+20
 30
1.000000000000000E+20
  9
$PEXTMAX
 10
-1.000000000000000E+20
 20
-1.000000000000000E+20
 30
-1.000000000000000E+20
  9
$PLIMMIN
 10
0.0
 20
0.0
  9
$PLIMMAX
 10
12.0
 20
9.0
  9
$UNITMODE
 70
     0
  9
$VISRETAIN
 70
     0
  9
$PLINEGEN
 70
     0
  9
$PSLTSCALE
 70
     0
  9
$TREEDEPTH
 70
  3020
  9
$DWGCODEPAGE
  3
undefined
  0
ENDSEC
  0
SECTION
  2
TABLES
  0
TABLE
  2
VPORT
 70
     2
  0
VPORT
  2
*ACTIVE
 70
     0
 10
0.0
 20
0.0
 11
1.0
 21
1.0
 12
97.9837432253081
 22
102.2155438979428
 13
0.0
 23
0.0
 14
1.0
 24
1.0
 15
10.0
 25
10.0
 16
0.0
 26
0.0
 36
1.0
 17
0.0
 27
0.0
 37
0.0
 40
138.5074268270535
 41
1.275675675675675
 42
50.0
 43
0.0
 44
0.0
 50
0.0
 51
0.0
 71
     0
 72
   100
 73
     1
 74
     0
 75
     0
 76
     0
 77
     0
 78
     0
  0
ENDTAB
  0
TABLE
  2
LTYPE
 70
     4
  0
LTYPE
  2
CONTINUOUS
 70
    64
  3
Solid line
 72
    65
 73
     0
 40
0.0
  0
LTYPE
  2
GEN
 70
    64
  3
----------------------
 72
    65
 73
     2
 40
10000000000.0
 49
0.0
 49
10000000000.0
  0
LTYPE
  2
ITEM-STRICHPUNKT
 70
    64
  3
__ . __ . __
 72
    65
 73
     4
 40
3.599999999999999
 49
2.399999999999999
 49
-0.6
 49
0.0
 49
-0.6
  0
LTYPE
  2
AUSGEZOGEN
 70
    64
  3
Solid line
 72
    65
 73
     0
 40
0.0
  0
ENDTAB
  0
TABLE
  2
LAYER
 70
     4
  0
LAYER
  2
0
 70
     0
 62
     7
  6
GEN
  0
LAYER
  2
ITEM_50
 70
    64
 62
     7
  6
CONTINUOUS
  0
LAYER
  2
ITEM_STP
 70
    64
 62
     4
  6
ITEM-STRICHPUNKT
  0
LAYER
  2
ITEM_HILFE
 70
    64
 62
     3
  6
AUSGEZOGEN
  0
ENDTAB
  0
TABLE
  2
STYLE
 70
     1
  0
STYLE
  2
STANDARD
 70
     0
 40
0.0
 41
1.0
 50
0.0
 71
     0
 42
3.5
  3
ISO8
  4

  0
ENDTAB
  0
TABLE
  2
VIEW
 70
     0
  0
ENDTAB
  0
TABLE
  2
UCS
 70
     0
  0
ENDTAB
  0
TABLE
  2
APPID
 70
     1
  0
APPID
  2
ACAD
 70
    64
  0
ENDTAB
  0
TABLE
  2
DIMSTYLE
 70
     0
  0
ENDTAB
  0
ENDSEC
  0
SECTION
  2
BLOCKS
  0
ENDSEC
  0
SECTION
  2
ENTITIES
  0
LINE
  8
ITEM_50
 10
11.91622262313645
 20
72.96183048441608
 30
0.0
 11
11.91622262313645
 21
32.96183048441609
 31
0.0
  0
LINE
  8
ITEM_50
 10
171.8854820666787
 20
72.96183048441608
 30
0.0
 11
171.8854820666788
 21
32.96183048441609
 31
0.0
  0
LINE
  8
ITEM_50
 10
11.91622262313645
 20
72.96183048441608
 30
0.0
 11
171.8854820666788
 21
72.96183048441608
 31
0.0
  0
LINE
  8
ITEM_50
 10
11.91622262313645
 20
32.96183048441609
 30
0.0
 11
171.8854820666788
 21
32.96183048441609
 31
0.0
  0
ARC
  8
ITEM_50
 10
161.8480533449076
 20
87.69553949280796
 30
0.0
 40
0.5
 50
224.994134
 51
39.35682099999999
  0
LINE
  8
ITEM_50
 10
159.8008523449076
 20
91.70009249280795
 30
0.0
 11
159.8008523449076
 21
92.36284449280796
 31
0.0
  0
ARC
  8
ITEM_50
 10
159.8008523449076
 20
90.58653949280792
 30
0.0
 40
1.0
 50
27.0
 51
83.84936
  0
ARC
  8
ITEM_50
 10
159.9208523449076
 20
92.36284449280796
 30
0.0
 40
0.12
 50
135.0
 51
180.0
  0
ARC
  8
ITEM_50
 10
159.9208523449076
 20
91.70009249280795
 30
0.0
 40
0.12
 50
180.0
 51
263.8493599999999
  0
LINE
  8
ITEM_50
 10
159.8359993449076
 20
92.44769749280791
 30
0.0
 11
163.3150653449076
 21
95.92676349280796
 31
0.0
  0
LINE
  8
ITEM_50
 10
160.6918593449076
 20
91.04052849280796
 30
0.0
 11
162.2346593449076
 21
88.01261349280795
 31
0.0
  0
ARC
  8
ITEM_50
 10
21.95365134490757
 20
87.69553949280796
 30
0.0
 40
0.5
 50
140.643179
 51
315.005866
  0
LINE
  8
ITEM_50
 10
23.9657053449076
 20
92.44769749280791
 30
0.0
 11
20.48663834490762
 21
95.92676349280796
 31
0.0
  0
ARC
  8
ITEM_50
 10
23.88085234490765
 20
91.70009249280795
 30
0.0
 40
0.12
 50
276.15064
 51
0.0
  0
ARC
  8
ITEM_50
 10
23.88085234490765
 20
92.36284449280796
 30
0.0
 40
0.12
 50
0.0
 51
45.0
  0
ARC
  8
ITEM_50
 10
24.00085234490765
 20
90.58653949280792
 30
0.0
 40
1.0
 50
96.15063999999999
 51
153.0
  0
LINE
  8
ITEM_50
 10
24.00085234490765
 20
91.70009249280795
 30
0.0
 11
24.00085234490765
 21
92.36284449280796
 31
0.0
  0
LINE
  8
ITEM_50
 10
23.1098453449076
 20
91.04052849280796
 30
0.0
 11
21.56704534490765
 21
88.01261349280795
 31
0.0
  0
LINE
  8
ITEM_50
 10
50.20085234490758
 20
103.6955394928079
 30
0.0
 11
63.60085234490767
 21
103.6955394928079
 31
0.0
  0
LINE
  8
ITEM_50
 10
36.20085234490758
 20
103.6955394928079
 30
0.0
 11
49.60085234490767
 21
103.6955394928079
 31
0.0
  0
ARC
  8
ITEM_50
 10
35.90085234490763
 20
103.6397614928079
 30
0.0
 40
0.12
 50
236.309932
 51
303.6900679999999
  0
LINE
  8
ITEM_50
 10
35.83428834490766
 20
103.5399154928079
 30
0.0
 11
35.60085234490767
 21
103.6955394928079
 31
0.0
  0
LINE
  8
ITEM_50
 10
36.20085234490758
 20
103.6955394928079
 30
0.0
 11
35.9674163449076
 21
103.5399154928079
 31
0.0
  0
LINE
  8
ITEM_50
 10
49.60085234490767
 20
103.6955394928079
 30
0.0
 11
49.83428834490766
 21
103.5399154928079
 31
0.0
  0
LINE
  8
ITEM_50
 10
49.9674163449076
 20
103.5399154928079
 30
0.0
 11
50.20085234490758
 21
103.6955394928079
 31
0.0
  0
ARC
  8
ITEM_50
 10
49.90085234490763
 20
103.6397614928079
 30
0.0
 40
0.12
 50
236.309932
 51
303.6900679999999
  0
ARC
  8
ITEM_50
 10
49.90085234490763
 20
103.6397614928079
 30
0.0
 40
0.12
 50
236.309932
 51
303.6900679999999
  0
LINE
  8
ITEM_50
 10
49.83428834490766
 20
103.5399154928079
 30
0.0
 11
49.60085234490767
 21
103.6955394928079
 31
0.0
  0
LINE
  8
ITEM_50
 10
50.20085234490758
 20
103.6955394928079
 30
0.0
 11
49.9674163449076
 21
103.5399154928079
 31
0.0
  0
LINE
  8
ITEM_50
 10
35.60085234490767
 20
103.6955394928079
 30
0.0
 11
18.80085234490761
 21
103.6955394928079
 31
0.0
  0
LINE
  8
ITEM_50
 10
51.90085234490763
 20
101.1955394928079
 30
0.0
 11
23.90085234490763
 21
101.1955394928079
 31
0.0
  0
ARC
  8
ITEM_50
 10
13.90087799931337
 20
96.35786026661426
 30
0.0
 40
2.0
 50
180.0004399999999
 51
101.537399
  0
ARC
  8
ITEM_50
 10
15.90085234490763
 20
99.69553949280796
 30
0.0
 40
3.0
 50
84.97616200000001
 51
180.0004399999999
  0
ARC
  8
ITEM_50
 10
15.90085234490763
 20
99.69553949280796
 30
0.0
 40
4.0
 50
84.97600000000001
 51
180.0004399999999
  0
LINE
  8
ITEM_50
 10
12.90085263610489
 20
99.69551643918319
 30
0.0
 11
12.90085959358197
 21
98.80734255731005
 31
0.0
  0
LINE
  8
ITEM_50
 10
11.90085177715512
 20
99.69550549249657
 30
0.0
 11
11.90087789058322
 21
96.3578452587748
 31
0.0
  0
ARC
  8
ITEM_50
 10
13.40085885175276
 20
98.80734612591015
 30
0.0
 40
0.5
 50
180.0004399999999
 51
281.5373989999999
  0
LINE
  8
ITEM_50
 10
21.90085234490763
 20
99.19553949280796
 30
0.0
 11
21.90085234490763
 21
99.04635949280796
 31
0.0
  0
LINE
  8
ITEM_50
 10
23.30673934490764
 20
95.65224649280796
 30
0.0
 11
25.19404034490762
 21
93.76494649280797
 31
0.0
  0
ARC
  8
ITEM_50
 10
26.70085234490759
 20
99.04635949280796
 30
0.0
 40
4.799999999999999
 50
180.0
 51
225.0
  0
LINE
  8
ITEM_50
 10
18.20085234490759
 20
103.6955394928079
 30
0.0
 11
15.90085234490763
 21
103.6955394928079
 31
0.0
  0
ARC
  8
ITEM_50
 10
16.50085234490765
 20
102.1955394928079
 30
0.0
 40
0.5
 50
0.0
 51
90.0
  0
ARC
  8
ITEM_50
 10
20.94158834490767
 20
102.4455394928079
 30
0.0
 40
0.25
 50
316.826546
 51
90.0
  0
ARC
  8
ITEM_50
 10
19.50085234490765
 20
102.1955394928079
 30
0.0
 40
0.5
 50
90.0
 51
180.0
  0
LINE
  8
ITEM_50
 10
19.50085234490765
 20
102.6955394928079
 30
0.0
 11
20.94158834490767
 21
102.6955394928079
 31
0.0
  0
ARC
  8
ITEM_50
 10
18.50085234490765
 20
103.6397614928079
 30
0.0
 40
0.12
 50
236.309932
 51
303.6900679999999
  0
LINE
  8
ITEM_50
 10
18.43428834490757
 20
103.5399154928079
 30
0.0
 11
18.20085234490759
 21
103.6955394928079
 31
0.0
  0
LINE
  8
ITEM_50
 10
18.80085234490761
 20
103.6955394928079
 30
0.0
 11
18.56741634490763
 21
103.5399154928079
 31
0.0
  0
LINE
  8
ITEM_50
 10
16.16356243993064
 20
102.6840145899192
 30
0.0
 11
16.76126626714438
 21
102.6314699896728
 31
0.0
  0
LINE
  8
ITEM_50
 10
17.00085234490765
 20
101.1955394928079
 30
0.0
 11
17.00085234490765
 21
102.1955394928079
 31
0.0
  0
LINE
  8
ITEM_50
 10
19.00085234490765
 20
102.1955394928079
 30
0.0
 11
19.00085234490765
 21
101.1955394928079
 31
0.0
  0
ARC
  8
ITEM_50
 10
23.90085234490763
 20
99.19553949280796
 30
0.0
 40
2.0
 50
90.0
 51
180.0
  0
LINE
  8
ITEM_50
 10
22.30724034490762
 20
87.34202249280795
 30
0.0
 11
25.19422134490762
 21
90.22959349280793
 31
0.0
  0
ARC
  8
ITEM_50
 10
23.42627334490757
 20
91.99717949280793
 30
0.0
 40
2.5
 50
315.005866
 51
45.0
  0
LINE
  8
ITEM_50
 10
19.00085234490765
 20
101.1955394928079
 30
0.0
 11
17.00085234490765
 21
101.1955394928079
 31
0.0
  0
LINE
  8
ITEM_50
 10
164.8008523449076
 20
101.1955394928079
 30
0.0
 11
166.8008523449076
 21
101.1955394928079
 31
0.0
  0
ARC
  8
ITEM_50
 10
160.3754313449076
 20
91.99717949280793
 30
0.0
 40
2.5
 50
135.0
 51
224.994134
  0
LINE
  8
ITEM_50
 10
161.4944643449076
 20
87.34202249280795
 30
0.0
 11
158.6074833449076
 21
90.22959349280793
 31
0.0
  0
LINE
  8
ITEM_50
 10
64.20085234490758
 20
103.6955394928079
 30
0.0
 11
63.9674163449076
 21
103.5399154928079
 31
0.0
  0
LINE
  8
ITEM_50
 10
63.83428834490766
 20
103.5399154928079
 30
0.0
 11
63.60085234490767
 21
103.6955394928079
 31
0.0
  0
ARC
  8
ITEM_50
 10
63.90085234490763
 20
103.6397614928079
 30
0.0
 40
0.12
 50
236.309932
 51
303.6900679999999
  0
ARC
  8
ITEM_50
 10
63.90085234490763
 20
103.6397614928079
 30
0.0
 40
0.12
 50
236.309932
 51
303.6900679999999
  0
LINE
  8
ITEM_50
 10
63.9674163449076
 20
103.5399154928079
 30
0.0
 11
64.20085234490758
 21
103.6955394928079
 31
0.0
  0
LINE
  8
ITEM_50
 10
63.60085234490767
 20
103.6955394928079
 30
0.0
 11
63.83428834490766
 21
103.5399154928079
 31
0.0
  0
ARC
  8
ITEM_50
 10
159.9008523449076
 20
99.19553949280796
 30
0.0
 40
2.0
 50
0.0
 51
90.0
  0
LINE
  8
ITEM_50
 10
164.8008523449076
 20
102.1955394928079
 30
0.0
 11
164.8008523449076
 21
101.1955394928079
 31
0.0
  0
LINE
  8
ITEM_50
 10
166.8008523449076
 20
101.1955394928079
 30
0.0
 11
166.8008523449076
 21
102.1955394928079
 31
0.0
  0
LINE
  8
ITEM_50
 10
167.6381412537265
 20
102.6840145023462
 30
0.0
 11
167.0404384226708
 21
102.6314699896728
 31
0.0
  0
LINE
  8
ITEM_50
 10
165.0008523449076
 20
103.6955394928079
 30
0.0
 11
165.2342883449076
 21
103.5399154928079
 31
0.0
  0
LINE
  8
ITEM_50
 10
165.3674163449076
 20
103.5399154928079
 30
0.0
 11
165.6008523449077
 21
103.6955394928079
 31
0.0
  0
ARC
  8
ITEM_50
 10
165.3008523449076
 20
103.6397614928079
 30
0.0
 40
0.12
 50
236.309932
 51
303.6900679999999
  0
LINE
  8
ITEM_50
 10
164.3008523449076
 20
102.6955394928079
 30
0.0
 11
162.8601163449076
 21
102.6955394928079
 31
0.0
  0
ARC
  8
ITEM_50
 10
164.3008523449076
 20
102.1955394928079
 30
0.0
 40
0.5
 50
0.0
 51
90.0
  0
ARC
  8
ITEM_50
 10
162.8601163449076
 20
102.4455394928079
 30
0.0
 40
0.25
 50
90.0
 51
223.1734539999999
  0
ARC
  8
ITEM_50
 10
167.3008523449076
 20
102.1955394928079
 30
0.0
 40
0.5
 50
90.0
 51
180.0
  0
LINE
  8
ITEM_50
 10
165.6008523449077
 20
103.6955394928079
 30
0.0
 11
167.9008523449076
 21
103.6955394928079
 31
0.0
  0
ARC
  8
ITEM_50
 10
157.1008523449077
 20
99.04635949280796
 30
0.0
 40
4.799999999999999
 50
315.0
 51
0.0
  0
LINE
  8
ITEM_50
 10
160.4949643449076
 20
95.65224649280796
 30
0.0
 11
158.6076643449076
 21
93.76494649280797
 31
0.0
  0
LINE
  8
ITEM_50
 10
161.9008523449076
 20
99.19553949280796
 30
0.0
 11
161.9008523449076
 21
99.04635949280796
 31
0.0
  0
LINE
  8
ITEM_50
 10
51.90085234490763
 20
101.1955394928079
 30
0.0
 11
159.9008523449076
 21
101.1955394928079
 31
0.0
  0
ARC
  8
ITEM_50
 10
170.4008458380625
 20
98.80734612591015
 30
0.0
 40
0.5
 50
258.462601
 51
359.9995599999999
  0
LINE
  8
ITEM_50
 10
171.900851916502
 20
99.69550540492357
 30
0.0
 11
171.900826799232
 21
96.3578452587748
 31
0.0
  0
LINE
  8
ITEM_50
 10
170.9008520537103
 20
99.69551643918322
 30
0.0
 11
170.9008450962331
 21
98.80734255731005
 31
0.0
  0
ARC
  8
ITEM_50
 10
167.9008523449076
 20
99.69553949280799
 30
0.0
 40
4.0
 50
359.9995599999999
 51
95.024
  0
ARC
  8
ITEM_50
 10
167.9008523449076
 20
99.69553949280799
 30
0.0
 40
3.0
 50
359.9995599999999
 51
95.02383799999998
  0
ARC
  8
ITEM_50
 10
169.9008266905019
 20
96.35786026661426
 30
0.0
 40
2.0
 50
78.46260099999999
 51
359.9995599999999
  0
LINE
  8
ITEM_50
 10
148.2008523449076
 20
103.6955394928079
 30
0.0
 11
165.0008523449076
 21
103.6955394928079
 31
0.0
  0
POINT
  8
ITEM_HILFE
 10
11.90085234490762
 20
103.6955394928079
 30
0.0
  0
POINT
  8
ITEM_HILFE
 10
171.9008523449076
 20
103.6955394928079
 30
0.0
  0
ARC
  8
ITEM_50
 10
21.90085234490763
 20
97.34097749280795
 30
0.0
 40
2.0
 50
180.0
 51
225.0
  0
LINE
  8
ITEM_50
 10
19.90085234490763
 20
97.34097749280795
 30
0.0
 11
19.90085234490763
 21
99.19554549280798
 31
0.0
  0
ARC
  8
ITEM_50
 10
24.40569534490764
 20
99.19554549280798
 30
0.0
 40
4.5
 50
136.826546
 51
180.0
  0
ARC
  8
ITEM_50
 10
159.3960093449076
 20
99.195545492808
 30
0.0
 40
4.5
 50
0.0000000000000987
 51
43.1734540000001
  0
LINE
  8
ITEM_50
 10
163.9008523449076
 20
97.340977492808
 30
0.0
 11
163.9008523449076
 21
99.19554549280803
 31
0.0
  0
ARC
  8
ITEM_50
 10
161.9008523449076
 20
97.34097749280797
 30
0.0
 40
2.0
 50
315.0
 51
0.0000000000000987
  0
LINE
  8
ITEM_50
 10
105.6008523449076
 20
103.6955394928079
 30
0.0
 11
105.8342883449076
 21
103.5399154928079
 31
0.0
  0
LINE
  8
ITEM_50
 10
105.9674163449076
 20
103.5399154928079
 30
0.0
 11
106.2008523449075
 21
103.6955394928079
 31
0.0
  0
ARC
  8
ITEM_50
 10
105.9008523449076
 20
103.6397614928079
 30
0.0
 40
0.12
 50
236.309932
 51
303.6900679999999
  0
ARC
  8
ITEM_50
 10
105.9008523449076
 20
103.6397614928079
 30
0.0
 40
0.12
 50
236.309932
 51
303.6900679999999
  0
LINE
  8
ITEM_50
 10
105.8342883449076
 20
103.5399154928079
 30
0.0
 11
105.6008523449076
 21
103.6955394928079
 31
0.0
  0
LINE
  8
ITEM_50
 10
106.2008523449075
 20
103.6955394928079
 30
0.0
 11
105.9674163449076
 21
103.5399154928079
 31
0.0
  0
LINE
  8
ITEM_50
 10
92.20085234490758
 20
103.6955394928079
 30
0.0
 11
91.9674163449076
 21
103.5399154928079
 31
0.0
  0
LINE
  8
ITEM_50
 10
91.83428834490766
 20
103.5399154928079
 30
0.0
 11
91.60085234490767
 21
103.6955394928079
 31
0.0
  0
ARC
  8
ITEM_50
 10
91.90085234490763
 20
103.6397614928079
 30
0.0
 40
0.12
 50
236.309932
 51
303.6900679999999
  0
ARC
  8
ITEM_50
 10
91.90085234490763
 20
103.6397614928079
 30
0.0
 40
0.12
 50
236.309932
 51
303.6900679999999
  0
LINE
  8
ITEM_50
 10
91.9674163449076
 20
103.5399154928079
 30
0.0
 11
92.20085234490758
 21
103.6955394928079
 31
0.0
  0
LINE
  8
ITEM_50
 10
91.60085234490767
 20
103.6955394928079
 30
0.0
 11
91.83428834490766
 21
103.5399154928079
 31
0.0
  0
LINE
  8
ITEM_50
 10
78.20085234490758
 20
103.6955394928079
 30
0.0
 11
77.9674163449076
 21
103.5399154928079
 31
0.0
  0
LINE
  8
ITEM_50
 10
77.83428834490766
 20
103.5399154928079
 30
0.0
 11
77.60085234490767
 21
103.6955394928079
 31
0.0
  0
ARC
  8
ITEM_50
 10
77.90085234490763
 20
103.6397614928079
 30
0.0
 40
0.12
 50
236.309932
 51
303.6900679999999
  0
LINE
  8
ITEM_50
 10
78.20085234490758
 20
103.6955394928079
 30
0.0
 11
91.60085234490767
 21
103.6955394928079
 31
0.0
  0
LINE
  8
ITEM_50
 10
92.20085234490758
 20
103.6955394928079
 30
0.0
 11
105.6008523449076
 21
103.6955394928079
 31
0.0
  0
LINE
  8
ITEM_50
 10
147.6008523449077
 20
103.6955394928079
 30
0.0
 11
147.8342883449076
 21
103.5399154928079
 31
0.0
  0
LINE
  8
ITEM_50
 10
147.9674163449076
 20
103.5399154928079
 30
0.0
 11
148.2008523449076
 21
103.6955394928079
 31
0.0
  0
ARC
  8
ITEM_50
 10
147.9008523449076
 20
103.6397614928079
 30
0.0
 40
0.12
 50
236.309932
 51
303.6900679999999
  0
ARC
  8
ITEM_50
 10
147.9008523449076
 20
103.6397614928079
 30
0.0
 40
0.12
 50
236.309932
 51
303.6900679999999
  0
LINE
  8
ITEM_50
 10
147.8342883449076
 20
103.5399154928079
 30
0.0
 11
147.6008523449077
 21
103.6955394928079
 31
0.0
  0
LINE
  8
ITEM_50
 10
148.2008523449076
 20
103.6955394928079
 30
0.0
 11
147.9674163449076
 21
103.5399154928079
 31
0.0
  0
LINE
  8
ITEM_50
 10
134.2008523449075
 20
103.6955394928079
 30
0.0
 11
133.9674163449076
 21
103.5399154928079
 31
0.0
  0
LINE
  8
ITEM_50
 10
133.8342883449076
 20
103.5399154928079
 30
0.0
 11
133.6008523449076
 21
103.6955394928079
 31
0.0
  0
ARC
  8
ITEM_50
 10
133.9008523449076
 20
103.6397614928079
 30
0.0
 40
0.12
 50
236.309932
 51
303.6900679999999
  0
ARC
  8
ITEM_50
 10
133.9008523449076
 20
103.6397614928079
 30
0.0
 40
0.12
 50
236.309932
 51
303.6900679999999
  0
LINE
  8
ITEM_50
 10
133.9674163449076
 20
103.5399154928079
 30
0.0
 11
134.2008523449075
 21
103.6955394928079
 31
0.0
  0
LINE
  8
ITEM_50
 10
133.6008523449076
 20
103.6955394928079
 30
0.0
 11
133.8342883449076
 21
103.5399154928079
 31
0.0
  0
LINE
  8
ITEM_50
 10
120.2008523449075
 20
103.6955394928079
 30
0.0
 11
119.9674163449076
 21
103.5399154928079
 31
0.0
  0
LINE
  8
ITEM_50
 10
119.8342883449076
 20
103.5399154928079
 30
0.0
 11
119.6008523449076
 21
103.6955394928079
 31
0.0
  0
ARC
  8
ITEM_50
 10
119.9008523449076
 20
103.6397614928079
 30
0.0
 40
0.12
 50
236.309932
 51
303.6900679999999
  0
LINE
  8
ITEM_50
 10
120.2008523449075
 20
103.6955394928079
 30
0.0
 11
133.6008523449076
 21
103.6955394928079
 31
0.0
  0
LINE
  8
ITEM_50
 10
134.2008523449075
 20
103.6955394928079
 30
0.0
 11
147.6008523449077
 21
103.6955394928079
 31
0.0
  0
LINE
  8
ITEM_50
 10
64.20085234490758
 20
103.6955394928079
 30
0.0
 11
77.60085234490767
 21
103.6955394928079
 31
0.0
  0
LINE
  8
ITEM_50
 10
106.2008523449075
 20
103.6955394928079
 30
0.0
 11
119.6008523449076
 21
103.6955394928079
 31
0.0
  0
LINE
  8
ITEM_STP
 10
91.90085234490763
 20
107.3510630656237
 30
0.0
 11
91.90085234490763
 21
88.69694479306338
 31
0.0
  0
LINE
  8
ITEM_50
 10
49.90085234490744
 20
45.22324880733527
 30
0.0
 11
49.90085234490736
 21
32.96183048441608
 31
0.0
  0
LINE
  8
ITEM_50
 10
77.90085234490766
 20
72.96183048441608
 30
0.0
 11
77.90085234490709
 21
32.96183048441609
 31
0.0
  0
LINE
  8
ITEM_50
 10
105.9008523449076
 20
72.96183048441608
 30
0.0
 11
105.9008523449076
 21
32.96183048441609
 31
0.0
  0
LINE
  8
ITEM_50
 10
133.9008523449076
 20
45.22324880733524
 30
0.0
 11
133.9008523449076
 21
32.96183048441609
 31
0.0
  0
CIRCLE
  8
ITEM_50
 10
49.90085234490755
 20
52.96183048441608
 30
0.0
 40
7.75
  0
CIRCLE
  8
ITEM_50
 10
133.9008523449076
 20
52.96183048441608
 30
0.0
 40
7.75
  0
LINE
  8
ITEM_50
 10
165.3008523449076
 20
72.96183048441608
 30
0.0
 11
165.3008523449076
 21
32.96183048441609
 31
0.0
  0
LINE
  8
ITEM_50
 10
147.9008523449076
 20
72.96183048441608
 30
0.0
 11
147.9008523449076
 21
32.96183048441609
 31
0.0
  0
LINE
  8
ITEM_50
 10
133.9008523449076
 20
72.96183048441608
 30
0.0
 11
133.9008523449076
 21
60.70041216149682
 31
0.0
  0
LINE
  8
ITEM_50
 10
119.9008523449076
 20
72.96183048441608
 30
0.0
 11
119.900852344907
 21
32.96183048441609
 31
0.0
  0
LINE
  8
ITEM_50
 10
91.90085234490763
 20
72.96183048441608
 30
0.0
 11
91.90085234490763
 21
32.96183048441609
 31
0.0
  0
LINE
  8
ITEM_50
 10
63.90085234490764
 20
72.96183048441608
 30
0.0
 11
63.90085234490792
 21
32.96183048441609
 31
0.0
  0
LINE
  8
ITEM_50
 10
18.50085234490764
 20
72.96183048441608
 30
0.0
 11
18.50085234490756
 21
32.96183048441609
 31
0.0
  0
LINE
  8
ITEM_50
 10
49.90085234490764
 20
72.96183048441608
 30
0.0
 11
49.90085234490755
 21
60.70041216149688
 31
0.0
  0
LINE
  8
ITEM_50
 10
35.90085234490764
 20
72.96183048441608
 30
0.0
 11
35.90085234490764
 21
32.96183048441608
 31
0.0
  0
LINE
  8
ITEM_50
 10
186.3290208771585
 20
103.6955394928079
 30
0.0
 11
185.3290208771585
 21
103.6955394928079
 31
0.0
  0
LINE
  8
ITEM_50
 10
186.3290208771585
 20
94.35786026661426
 30
0.0
 11
186.3290208771585
 21
103.6955394928079
 31
0.0
  0
LINE
  8
ITEM_50
 10
185.3290208771585
 20
94.35786026661426
 30
0.0
 11
186.3290208771585
 21
94.35786026661426
 31
0.0
  0
LINE
  8
ITEM_50
 10
185.3290208771585
 20
103.6955394928079
 30
0.0
 11
185.3290208771585
 21
94.35786026661426
 31
0.0
  0
ENDSEC
  0
EOF
